cifras.art.br - cifras e tablaturas de Nando Reis para violão e guitarra


Você está vendo a música Eu Quero Ver O Oco de Raimundos. Quer ver cifras de outros artistas? Use o abecedário abaixo.

ABCDEFGHIJKLMNOPQRSTUVWXYZ0-9Temas e Jingles

Exibindo letra cifrada

Obs: Afine a guitarra um tom abaixo. É assim que a música foi gravada. 


Introdução-(C#  D) (A  B  A  F#  A  B  A  F#)

             (A  B  C#  D  E)  F#

Tom-C#



A B A (F#  A  B  A  F#  G#  A  G#  F#  A  G#)
Fizera pouco em tê-lo deixado
Todo quebrado, desfigurado
Irreconhecível até pra mãe
- "Mãe, olha só que legal,
O carro que eu ganhei no natal,
Tu que me deu e disse cuidado pra que não arranhe".
        (A  B  C#  D  E)
- "Menino doido! Tu quebrou até os friso!
Tem noção do prejuízo?
Acho que teu véi vai te matar".
Os olho dele esperando o carro do ano
Um modelo italiano
        A
Que acabaram de inventar
B  A  (F#  A  B  A  F#  G#  A  G#  F#  A  G#)
Carrão da porra tu pisava ele voava
Tu freiava ele ancorava
E eu lá dentro a me debater
No bate-bate com a cabeça no volante
Voei pelo vidro da frente
E a raiva preta que eu não pude conter
             (A  B  C#  D  E)
Com o sangue quente cortei a testa
Quebrei os dente e toda aquela gente
Peste! Não vem ninguém me ajudar
Nem se mexiam pior que isso eles riam
Teto preto, o tempo fecha
                       A          B
Ozóvo inflama, hora do pau cantar
   E                 G  A
Eu quero é ver o oco
   A# B  E
Só na mãozada eu deitei seis
             G A   A# B
Mas detestei matar
   E                 G  A
Eu quero é ver o oco
    A# B  E
Sem controle tocando o fole
       G     A   A# B    (C# D)
É hora de dançar
         (F#  A  B  A  F#  G#  A  G#  F#  A  G#)
Meu ódio por automotores começou cedo
Depois que eu tranquei os dedo
Na porta dum opalão
Meu pai de dentro se ria que se mijava
Achou que o Filho festejava
Era dia de Cosme e Damião
          (A  B  C#  D  E)
Depois do dedo foi o braço, a perna, as costas
Tu duvida? Bate uma aposta
Pois muitos vão lhe testemunhar
Tanta fratura que deixa a doutora louca
É pino até no céu da boca
                  A      B
Tu cansa só de tentar contar
   E                 G  A
Eu quero é ver o oco
  A# B  E
É pedir muito uma enfermeira
        G A  A# B
Vir me ajudar
   E                 G  A
Eu quero é ver o oco
    A# B E
Uma enfermeira gente boa
         G A  A# B  E
Vem me medicar
(C# D)  A  B  F#  E  F#  E  F#
   E                 G  A  A# B  E  G  A  A# B  E
Eu quero é ver o oco
               G  A  A# B  E  G  A  A# B  E
Eu quero é ver o oco

solo
(h) = hamônica
e|----------------------------------------------------------------|
B|-12~-12-13-12-13-15-15br-15-----------------10-12-12br-10-12-12-|
G|----------------------------/9-9-9-11-9-11----------------------|
D|----------------------------------------------------------------|
A|----------------------------------------------------------------|
E|----------------------------------------------------------------|

e|-10-12-12b-10-12-10--------------------------------------|
B|--------------------12-10-----12(h)----------------------|
G|--------------------------11--------12b(h)-12b(h)-12b(h)-|
D|---------------------------------------------------------|
A|---------------------------------------------------------|
E|---------------------------------------------------------|

e|--------------------------15-14-12-12h14p12-12-14-12-/17(h)-|
B|------------------------------------------------------------|
G|------------------------------------------------------------|
D|------------------------------------------------------------|
A|-------5-7-5h7p5--------------------------------------------|
E|-3-5-7-----------3-5-7--------------------------------------|

e|------15-15b-15b-15b-15b-21b-21b-21b--------|
B|-/10----------------------------------------|
G|-------------------------------------12b(h)-|
D|--------------------------------------------|
A|--------------------------------------------|
E|--------------------------------------------|

solo por Jonatas Albino, banda ENIGMA, RR
__________________________________________________________
Correção: Diogo Rossafa de Araujo (diogoraraujo)
Correção: Jonatas Albino (albinojonatas17@uol.com.br)

©2003 raimundos.cifras.art.br - todos os direitos reservados